Raimundos

Raimundos - Merry Christmas

rate me

C F7 G7

Merry Christmas I don't want to fight tonight

(Acordes)

C F7 G7

e|-0---------1----------3------------------------

B|-1---------1----------3------------------------

G|-0---------2----------4------------------------

D|-2---------1----------3------------------------

A|-3---------3----------5------------------------

E|-----------1----------3------------------------

(Acordes de potência)

C B F G

e|-----------------------------------------------

B|-----------------------------------------------

G|-5--------4------------------------------------

D|-5--------4-------3--------5-------------------

A|-3--------2-------3--------5-------------------

E|------------------1--------3-------------------

C-B F G

Merry Christmas I don't want to fight tonight

C F G

Merry Christmas I don't want to fight tonight

C F G

Merry Christmas I don't want to fight tonight

C F G

Merry Christmas I don't want to fight tonight

C F G

Merry Christmas I don't want to fight tonight

C F G

Merry Christmas I don't want to fight tonight

(O resto é na mesma sequência)

C - F - G

________________________________________________________

Get this song at:  amazon.com  sheetmusicplus.com

Share your thoughts

0 Comments found