Raimundos

Raimundos - Cc De Com Força

rate me

E|------------------|

B|------------------|

G|-9-9-9-9-9-9-9-9--|

D|-9-9-9-9-9-9-9-9--|

A|-7-7-7-7-7-7-7-7--|

E|------------------|

Riff1(2X)

e|------------------------------------------|

B|------------------------------------------|

G|------------------------------------------|

D|----------------------------------9-9-9-9-|

A|----------------------------------9-9-9-9-|

E|-0-0-0-7-0-7-5-6--0-0-0-7-0-7-5-6-7-7-7-7-|

|----2 vezes----|

"Não sei porque toda a vez

Que ele vem vindo vem quebrando tudo,

Entortando poste, batendo em véi barrigudo

E só toma um banho por mês

Que é pra ficar natural

Fedendo a onça espanta as moça é perfume de alho é sal

Vem pondo fogo no couro queimando as planta

Derrubando o toco seco onde o sabiá canta

Quem tá perto segura o tranco

E a tosse que chega fecha a garganta e seca a venta

Nem quem for corno não agüenta"

Refrão

e|--------------------------------------|

B|--------------------------------------|

G|-9-----9--7---------------------------|

D|-9--9--9--7--5---7-7-7-7--10-10-10-10-|

A|-7--9--7--5--5---7-7-7-7--10-10-10-10-|

E|----7--------3---5-5-5-5--8--8--8--8--|

|---3 vezes---|

"Destrói um carro novo

Quando o Mengão faz um golaço

Esse é o cheiro do povo

É o poder que vem do braço"

(riff1)(1X)

Fumacê brabo e a catinga é forte

E fica indigesto depois de praticar um esporte.

Lá na França, quem é chic deixa a axila azedar

Pra ficar feito o Maguila,

Riff2(1X)

e|--------------------------------------------|

B|--------------------------------------------|

G|------------------------------------6-6-6-6-|

D|------------------------------------6-6-6-6-|

A|-4-4---4--4-4-2-3---4-4---4-4-4-2-3-4-4-4-4-|

E|----2-2--2-------------2-2-2----------------|

|----2 vezes-----|

"E o com o tempo o cheiro muda

Conforme o costume, desculpa pra não se banhar

Fizeram altos perfumes

Só que aquele queijo verde velho ali não nega,

Eu não consigo relaxar, isso estraga a galega"

(refrão)(2X)

"Destrói um carro novo

Quando o Mengão faz um golaço

Pior que peido de ovo

É o fedor que vem dos braço"

Riff3

e|-----------------------------------------------------------------------|

B|-----------------------------------------------------------------------|

G|7-7-7----------------2-2-2-5-5-5---------------2-2-2-5-5-5-------7-7-7-|

D|7-7-7----------------2-2-2-5-5-5---------------2-2-2-5-5-5-5-5-5-7-7-7-|

A|5-5-5----------------0-0-0-3-3-3---------------0-0-0-3-3-3-5-5-5-5-5-5-|

E|-----0-0-0-7-0-7-0-7------------0-0-0-7-0-7-0-7------------3-3-3-------|

|--------2 vezes-----|

"Vem devastando feito bomba H

Pra quem tem narizinho fresco é arma popular

Toda a polícia na rua, o povo gritando

A baforada dos braços anunciando

Que a porrada é braba e se não por

Álcool isso não acaba só matando

Pode vir quente que eu tô borbulhando"

(refrão)(2X)

E termina com: G|-9-|

D|-9-|

A|-7-|

_______________________________

Get this song at:  amazon.com  sheetmusicplus.com

Share your thoughts

0 Comments found